ISO-10303-21;
HEADER;
/* Generated by software containing ST-Developer
 * from STEP Tools, Inc. (www.steptools.com) 
 */
/* OPTION: using custom schema-name function */

FILE_DESCRIPTION(
/* description */ ('VariCAD 2015-1.09 AP-214'),
/* implementation_level */ '2;1');

FILE_NAME(
/* name */ 'TMFX-25-50.stp',
/* time_stamp */ '2015-05-26T09:07:07+09:00',
/* author */ (''),
/* organization */ (''),
/* preprocessor_version */ 'ST-DEVELOPER v14',
/* originating_system */ 'VariCAD 2015-1.09; kernel version (20130303)',

/* authorisation */ '');

FILE_SCHEMA (('AUTOMOTIVE_DESIGN'));
ENDSEC;

DATA;
#10=MECHANICAL_DESIGN_GEOMETRIC_PRESENTATION_REPRESENTATION('',(#230),#702);
#11=CONTEXT_DEPENDENT_SHAPE_REPRESENTATION(#13,#385);
#12=NEXT_ASSEMBLY_USAGE_OCCURRENCE('','','',#386,#387,'');
#13=(
REPRESENTATION_RELATIONSHIP('','',#400,#401)
REPRESENTATION_RELATIONSHIP_WITH_TRANSFORMATION(#14)
SHAPE_REPRESENTATION_RELATIONSHIP()
);
#14=ITEM_DEFINED_TRANSFORMATION('','',#459,#403);
#15=SHAPE_REPRESENTATION_RELATIONSHIP('','',#401,#16);
#16=ADVANCED_BREP_SHAPE_REPRESENTATION('',(#18,#458),#701);
#17=CLOSED_SHELL('',(#187,#188,#189,#190,#191,#192,#193,#194,#195,#196,#197,
#198,#199,#200,#201,#202,#203,#204,#205,#206,#207,#208,#209,#210));
#18=MANIFOLD_SOLID_BREP('',#17);
#19=CONICAL_SURFACE('',#452,14.4,0.785398163397454);
#20=CONICAL_SURFACE('',#453,14.4,0.785398163397436);
#21=CONICAL_SURFACE('',#454,14.4,0.785398163397462);
#22=CONICAL_SURFACE('',#455,14.4,0.785398163397462);
#23=CONICAL_SURFACE('',#456,12.7,0.785398163397419);
#24=CONICAL_SURFACE('',#457,12.7,0.785398163397419);
#25=FACE_BOUND('',#68,.F.);
#26=FACE_BOUND('',#71,.F.);
#27=FACE_BOUND('',#74,.F.);
#28=FACE_BOUND('',#77,.F.);
#29=FACE_BOUND('',#80,.F.);
#30=FACE_BOUND('',#83,.F.);
#31=PLANE('',#441);
#32=PLANE('',#443);
#33=PLANE('',#445);
#34=PLANE('',#447);
#35=PLANE('',#449);
#36=PLANE('',#451);
#37=FACE_OUTER_BOUND('',#61,.F.);
#38=FACE_OUTER_BOUND('',#62,.F.);
#39=FACE_OUTER_BOUND('',#63,.F.);
#40=FACE_OUTER_BOUND('',#64,.F.);
#41=FACE_OUTER_BOUND('',#65,.F.);
#42=FACE_OUTER_BOUND('',#66,.F.);
#43=FACE_OUTER_BOUND('',#67,.F.);
#44=FACE_OUTER_BOUND('',#69,.F.);
#45=FACE_OUTER_BOUND('',#70,.F.);
#46=FACE_OUTER_BOUND('',#72,.F.);
#47=FACE_OUTER_BOUND('',#73,.F.);
#48=FACE_OUTER_BOUND('',#75,.F.);
#49=FACE_OUTER_BOUND('',#76,.F.);
#50=FACE_OUTER_BOUND('',#78,.F.);
#51=FACE_OUTER_BOUND('',#79,.F.);
#52=FACE_OUTER_BOUND('',#81,.F.);
#53=FACE_OUTER_BOUND('',#82,.F.);
#54=FACE_OUTER_BOUND('',#84,.F.);
#55=FACE_OUTER_BOUND('',#85,.F.);
#56=FACE_OUTER_BOUND('',#86,.F.);
#57=FACE_OUTER_BOUND('',#87,.F.);
#58=FACE_OUTER_BOUND('',#88,.F.);
#59=FACE_OUTER_BOUND('',#89,.F.);
#60=FACE_OUTER_BOUND('',#90,.F.);
#61=EDGE_LOOP('',(#91,#92,#93,#94));
#62=EDGE_LOOP('',(#95,#96,#97,#98));
#63=EDGE_LOOP('',(#99,#100,#101,#102));
#64=EDGE_LOOP('',(#103,#104,#105,#106));
#65=EDGE_LOOP('',(#107,#108,#109,#110));
#66=EDGE_LOOP('',(#111,#112,#113,#114));
#67=EDGE_LOOP('',(#115,#116,#117,#118));
#68=EDGE_LOOP('',(#119,#120));
#69=EDGE_LOOP('',(#121,#122));
#70=EDGE_LOOP('',(#123,#124,#125,#126));
#71=EDGE_LOOP('',(#127,#128));
#72=EDGE_LOOP('',(#129,#130));
#73=EDGE_LOOP('',(#131,#132,#133,#134));
#74=EDGE_LOOP('',(#135,#136));
#75=EDGE_LOOP('',(#137,#138));
#76=EDGE_LOOP('',(#139,#140,#141,#142));
#77=EDGE_LOOP('',(#143,#144));
#78=EDGE_LOOP('',(#145,#146));
#79=EDGE_LOOP('',(#147,#148,#149,#150));
#80=EDGE_LOOP('',(#151,#152));
#81=EDGE_LOOP('',(#153,#154));
#82=EDGE_LOOP('',(#155,#156,#157,#158));
#83=EDGE_LOOP('',(#159,#160));
#84=EDGE_LOOP('',(#161,#162));
#85=EDGE_LOOP('',(#163,#164,#165,#166));
#86=EDGE_LOOP('',(#167,#168,#169,#170));
#87=EDGE_LOOP('',(#171,#172,#173,#174));
#88=EDGE_LOOP('',(#175,#176,#177,#178));
#89=EDGE_LOOP('',(#179,#180,#181,#182));
#90=EDGE_LOOP('',(#183,#184,#185,#186));
#91=ORIENTED_EDGE('',*,*,#319,.T.);
#92=ORIENTED_EDGE('',*,*,#317,.T.);
#93=ORIENTED_EDGE('',*,*,#318,.F.);
#94=ORIENTED_EDGE('',*,*,#299,.T.);
#95=ORIENTED_EDGE('',*,*,#309,.F.);
#96=ORIENTED_EDGE('',*,*,#320,.F.);
#97=ORIENTED_EDGE('',*,*,#310,.F.);
#98=ORIENTED_EDGE('',*,*,#321,.T.);
#99=ORIENTED_EDGE('',*,*,#311,.T.);
#100=ORIENTED_EDGE('',*,*,#322,.F.);
#101=ORIENTED_EDGE('',*,*,#312,.F.);
#102=ORIENTED_EDGE('',*,*,#323,.T.);
#103=ORIENTED_EDGE('',*,*,#313,.T.);
#104=ORIENTED_EDGE('',*,*,#324,.F.);
#105=ORIENTED_EDGE('',*,*,#314,.F.);
#106=ORIENTED_EDGE('',*,*,#325,.T.);
#107=ORIENTED_EDGE('',*,*,#326,.F.);
#108=ORIENTED_EDGE('',*,*,#301,.T.);
#109=ORIENTED_EDGE('',*,*,#327,.T.);
#110=ORIENTED_EDGE('',*,*,#307,.T.);
#111=ORIENTED_EDGE('',*,*,#315,.F.);
#112=ORIENTED_EDGE('',*,*,#328,.F.);
#113=ORIENTED_EDGE('',*,*,#316,.F.);
#114=ORIENTED_EDGE('',*,*,#329,.T.);
#115=ORIENTED_EDGE('',*,*,#318,.T.);
#116=ORIENTED_EDGE('',*,*,#338,.T.);
#117=ORIENTED_EDGE('',*,*,#319,.F.);
#118=ORIENTED_EDGE('',*,*,#297,.T.);
#119=ORIENTED_EDGE('',*,*,#330,.T.);
#120=ORIENTED_EDGE('',*,*,#309,.T.);
#121=ORIENTED_EDGE('',*,*,#300,.F.);
#122=ORIENTED_EDGE('',*,*,#298,.F.);
#123=ORIENTED_EDGE('',*,*,#320,.T.);
#124=ORIENTED_EDGE('',*,*,#330,.F.);
#125=ORIENTED_EDGE('',*,*,#321,.F.);
#126=ORIENTED_EDGE('',*,*,#331,.F.);
#127=ORIENTED_EDGE('',*,*,#331,.T.);
#128=ORIENTED_EDGE('',*,*,#310,.T.);
#129=ORIENTED_EDGE('',*,*,#332,.F.);
#130=ORIENTED_EDGE('',*,*,#311,.F.);
#131=ORIENTED_EDGE('',*,*,#322,.T.);
#132=ORIENTED_EDGE('',*,*,#332,.T.);
#133=ORIENTED_EDGE('',*,*,#323,.F.);
#134=ORIENTED_EDGE('',*,*,#333,.F.);
#135=ORIENTED_EDGE('',*,*,#333,.T.);
#136=ORIENTED_EDGE('',*,*,#312,.T.);
#137=ORIENTED_EDGE('',*,*,#334,.F.);
#138=ORIENTED_EDGE('',*,*,#313,.F.);
#139=ORIENTED_EDGE('',*,*,#324,.T.);
#140=ORIENTED_EDGE('',*,*,#334,.T.);
#141=ORIENTED_EDGE('',*,*,#325,.F.);
#142=ORIENTED_EDGE('',*,*,#335,.F.);
#143=ORIENTED_EDGE('',*,*,#335,.T.);
#144=ORIENTED_EDGE('',*,*,#314,.T.);
#145=ORIENTED_EDGE('',*,*,#308,.F.);
#146=ORIENTED_EDGE('',*,*,#305,.F.);
#147=ORIENTED_EDGE('',*,*,#326,.T.);
#148=ORIENTED_EDGE('',*,*,#306,.T.);
#149=ORIENTED_EDGE('',*,*,#327,.F.);
#150=ORIENTED_EDGE('',*,*,#303,.T.);
#151=ORIENTED_EDGE('',*,*,#336,.T.);
#152=ORIENTED_EDGE('',*,*,#315,.T.);
#153=ORIENTED_EDGE('',*,*,#304,.F.);
#154=ORIENTED_EDGE('',*,*,#302,.F.);
#155=ORIENTED_EDGE('',*,*,#328,.T.);
#156=ORIENTED_EDGE('',*,*,#336,.F.);
#157=ORIENTED_EDGE('',*,*,#329,.F.);
#158=ORIENTED_EDGE('',*,*,#337,.F.);
#159=ORIENTED_EDGE('',*,*,#337,.T.);
#160=ORIENTED_EDGE('',*,*,#316,.T.);
#161=ORIENTED_EDGE('',*,*,#338,.F.);
#162=ORIENTED_EDGE('',*,*,#317,.F.);
#163=ORIENTED_EDGE('',*,*,#340,.T.);
#164=ORIENTED_EDGE('',*,*,#307,.F.);
#165=ORIENTED_EDGE('',*,*,#339,.F.);
#166=ORIENTED_EDGE('',*,*,#308,.T.);
#167=ORIENTED_EDGE('',*,*,#339,.T.);
#168=ORIENTED_EDGE('',*,*,#306,.F.);
#169=ORIENTED_EDGE('',*,*,#340,.F.);
#170=ORIENTED_EDGE('',*,*,#305,.T.);
#171=ORIENTED_EDGE('',*,*,#342,.F.);
#172=ORIENTED_EDGE('',*,*,#303,.F.);
#173=ORIENTED_EDGE('',*,*,#341,.T.);
#174=ORIENTED_EDGE('',*,*,#304,.T.);
#175=ORIENTED_EDGE('',*,*,#341,.F.);
#176=ORIENTED_EDGE('',*,*,#301,.F.);
#177=ORIENTED_EDGE('',*,*,#342,.T.);
#178=ORIENTED_EDGE('',*,*,#302,.T.);
#179=ORIENTED_EDGE('',*,*,#344,.F.);
#180=ORIENTED_EDGE('',*,*,#299,.F.);
#181=ORIENTED_EDGE('',*,*,#343,.T.);
#182=ORIENTED_EDGE('',*,*,#300,.T.);
#183=ORIENTED_EDGE('',*,*,#343,.F.);
#184=ORIENTED_EDGE('',*,*,#297,.F.);
#185=ORIENTED_EDGE('',*,*,#344,.T.);
#186=ORIENTED_EDGE('',*,*,#298,.T.);
#187=ADVANCED_FACE('',(#37),#211,.T.);
#188=ADVANCED_FACE('',(#38),#212,.F.);
#189=ADVANCED_FACE('',(#39),#213,.F.);
#190=ADVANCED_FACE('',(#40),#214,.F.);
#191=ADVANCED_FACE('',(#41),#215,.T.);
#192=ADVANCED_FACE('',(#42),#216,.T.);
#193=ADVANCED_FACE('',(#43),#217,.T.);
#194=ADVANCED_FACE('',(#25,#44),#31,.T.);
#195=ADVANCED_FACE('',(#45),#218,.F.);
#196=ADVANCED_FACE('',(#26,#46),#32,.T.);
#197=ADVANCED_FACE('',(#47),#219,.F.);
#198=ADVANCED_FACE('',(#27,#48),#33,.T.);
#199=ADVANCED_FACE('',(#49),#220,.F.);
#200=ADVANCED_FACE('',(#28,#50),#34,.T.);
#201=ADVANCED_FACE('',(#51),#221,.T.);
#202=ADVANCED_FACE('',(#29,#52),#35,.T.);
#203=ADVANCED_FACE('',(#53),#222,.T.);
#204=ADVANCED_FACE('',(#30,#54),#36,.T.);
#205=ADVANCED_FACE('',(#55),#19,.T.);
#206=ADVANCED_FACE('',(#56),#20,.T.);
#207=ADVANCED_FACE('',(#57),#21,.T.);
#208=ADVANCED_FACE('',(#58),#22,.T.);
#209=ADVANCED_FACE('',(#59),#23,.T.);
#210=ADVANCED_FACE('',(#60),#24,.T.);
#211=CYLINDRICAL_SURFACE('',#434,13.);
#212=CYLINDRICAL_SURFACE('',#435,11.2);
#213=CYLINDRICAL_SURFACE('',#436,12.55);
#214=CYLINDRICAL_SURFACE('',#437,13.);
#215=CYLINDRICAL_SURFACE('',#438,14.9);
#216=CYLINDRICAL_SURFACE('',#439,12.55);
#217=CYLINDRICAL_SURFACE('',#440,13.);
#218=CYLINDRICAL_SURFACE('',#442,11.2);
#219=CYLINDRICAL_SURFACE('',#444,12.55);
#220=CYLINDRICAL_SURFACE('',#446,13.);
#221=CYLINDRICAL_SURFACE('',#448,14.9);
#222=CYLINDRICAL_SURFACE('',#450,12.55);
#223=PRESENTATION_STYLE_ASSIGNMENT((#224));
#224=SURFACE_STYLE_USAGE(.BOTH.,#225);
#225=SURFACE_SIDE_STYLE('',(#226));
#226=SURFACE_STYLE_FILL_AREA(#227);
#227=FILL_AREA_STYLE('',(#228));
#228=FILL_AREA_STYLE_COLOUR('',#229);
#229=COLOUR_RGB('Colour',0.792156862745098,0.792156862745098,0.870588235294118);
#230=STYLED_ITEM('',(#223),#18);
#231=LINE('',#647,#249);
#232=LINE('',#648,#250);
#233=LINE('',#649,#251);
#234=LINE('',#650,#252);
#235=LINE('',#651,#253);
#236=LINE('',#652,#254);
#237=LINE('',#653,#255);
#238=LINE('',#654,#256);
#239=LINE('',#655,#257);
#240=LINE('',#656,#258);
#241=LINE('',#657,#259);
#242=LINE('',#658,#260);
#243=LINE('',#668,#261);
#244=LINE('',#669,#262);
#245=LINE('',#670,#263);
#246=LINE('',#671,#264);
#247=LINE('',#672,#265);
#248=LINE('',#673,#266);
#249=VECTOR('',#506,3.7);
#250=VECTOR('',#507,3.7);
#251=VECTOR('',#508,9.);
#252=VECTOR('',#509,9.);
#253=VECTOR('',#510,37.);
#254=VECTOR('',#511,37.);
#255=VECTOR('',#512,9.);
#256=VECTOR('',#513,9.);
#257=VECTOR('',#514,49.);
#258=VECTOR('',#515,49.);
#259=VECTOR('',#516,1.);
#260=VECTOR('',#517,1.);
#261=VECTOR('',#536,0.707106781186553);
#262=VECTOR('',#537,0.707106781186543);
#263=VECTOR('',#538,0.707106781186548);
#264=VECTOR('',#539,0.707106781186548);
#265=VECTOR('',#540,0.424264068711927);
#266=VECTOR('',#541,0.424264068711927);
#267=CIRCLE('',#404,13.);
#268=CIRCLE('',#405,12.7);
#269=CIRCLE('',#406,13.);
#270=CIRCLE('',#407,12.7);
#271=CIRCLE('',#408,14.9);
#272=CIRCLE('',#409,14.4);
#273=CIRCLE('',#410,14.9);
#274=CIRCLE('',#411,14.4);
#275=CIRCLE('',#412,14.4);
#276=CIRCLE('',#413,14.9);
#277=CIRCLE('',#414,14.9);
#278=CIRCLE('',#415,14.4);
#279=CIRCLE('',#416,11.2);
#280=CIRCLE('',#417,11.2);
#281=CIRCLE('',#418,12.55);
#282=CIRCLE('',#419,12.55);
#283=CIRCLE('',#420,13.);
#284=CIRCLE('',#421,13.);
#285=CIRCLE('',#422,12.55);
#286=CIRCLE('',#423,12.55);
#287=CIRCLE('',#424,13.);
#288=CIRCLE('',#425,11.2);
#289=CIRCLE('',#426,11.2);
#290=CIRCLE('',#427,12.55);
#291=CIRCLE('',#428,12.55);
#292=CIRCLE('',#429,13.);
#293=CIRCLE('',#430,13.);
#294=CIRCLE('',#431,12.55);
#295=CIRCLE('',#432,12.55);
#296=CIRCLE('',#433,13.);
#297=EDGE_CURVE('',#374,#373,#267,.T.);
#298=EDGE_CURVE('',#372,#371,#268,.T.);
#299=EDGE_CURVE('',#373,#374,#269,.T.);
#300=EDGE_CURVE('',#371,#372,#270,.T.);
#301=EDGE_CURVE('',#370,#369,#271,.T.);
#302=EDGE_CURVE('',#368,#367,#272,.T.);
#303=EDGE_CURVE('',#369,#370,#273,.T.);
#304=EDGE_CURVE('',#367,#368,#274,.T.);
#305=EDGE_CURVE('',#366,#365,#275,.T.);
#306=EDGE_CURVE('',#364,#363,#276,.T.);
#307=EDGE_CURVE('',#363,#364,#277,.T.);
#308=EDGE_CURVE('',#365,#366,#278,.T.);
#309=EDGE_CURVE('',#362,#361,#279,.T.);
#310=EDGE_CURVE('',#360,#359,#280,.T.);
#311=EDGE_CURVE('',#358,#357,#281,.T.);
#312=EDGE_CURVE('',#356,#355,#282,.T.);
#313=EDGE_CURVE('',#354,#353,#283,.T.);
#314=EDGE_CURVE('',#352,#351,#284,.T.);
#315=EDGE_CURVE('',#350,#349,#285,.T.);
#316=EDGE_CURVE('',#348,#347,#286,.T.);
#317=EDGE_CURVE('',#346,#345,#287,.T.);
#318=EDGE_CURVE('',#373,#345,#231,.T.);
#319=EDGE_CURVE('',#374,#346,#232,.T.);
#320=EDGE_CURVE('',#359,#362,#233,.T.);
#321=EDGE_CURVE('',#360,#361,#234,.T.);
#322=EDGE_CURVE('',#355,#357,#235,.T.);
#323=EDGE_CURVE('',#356,#358,#236,.T.);
#324=EDGE_CURVE('',#351,#353,#237,.T.);
#325=EDGE_CURVE('',#352,#354,#238,.T.);
#326=EDGE_CURVE('',#370,#364,#239,.T.);
#327=EDGE_CURVE('',#369,#363,#240,.T.);
#328=EDGE_CURVE('',#347,#350,#241,.T.);
#329=EDGE_CURVE('',#348,#349,#242,.T.);
#330=EDGE_CURVE('',#361,#362,#288,.T.);
#331=EDGE_CURVE('',#359,#360,#289,.T.);
#332=EDGE_CURVE('',#357,#358,#290,.T.);
#333=EDGE_CURVE('',#355,#356,#291,.T.);
#334=EDGE_CURVE('',#353,#354,#292,.T.);
#335=EDGE_CURVE('',#351,#352,#293,.T.);
#336=EDGE_CURVE('',#349,#350,#294,.T.);
#337=EDGE_CURVE('',#347,#348,#295,.T.);
#338=EDGE_CURVE('',#345,#346,#296,.T.);
#339=EDGE_CURVE('',#365,#363,#243,.T.);
#340=EDGE_CURVE('',#366,#364,#244,.T.);
#341=EDGE_CURVE('',#369,#367,#245,.T.);
#342=EDGE_CURVE('',#370,#368,#246,.T.);
#343=EDGE_CURVE('',#373,#371,#247,.T.);
#344=EDGE_CURVE('',#374,#372,#248,.T.);
#345=VERTEX_POINT('',#596);
#346=VERTEX_POINT('',#597);
#347=VERTEX_POINT('',#598);
#348=VERTEX_POINT('',#599);
#349=VERTEX_POINT('',#600);
#350=VERTEX_POINT('',#601);
#351=VERTEX_POINT('',#602);
#352=VERTEX_POINT('',#603);
#353=VERTEX_POINT('',#604);
#354=VERTEX_POINT('',#605);
#355=VERTEX_POINT('',#606);
#356=VERTEX_POINT('',#607);
#357=VERTEX_POINT('',#608);
#358=VERTEX_POINT('',#609);
#359=VERTEX_POINT('',#610);
#360=VERTEX_POINT('',#611);
#361=VERTEX_POINT('',#612);
#362=VERTEX_POINT('',#613);
#363=VERTEX_POINT('',#614);
#364=VERTEX_POINT('',#615);
#365=VERTEX_POINT('',#616);
#366=VERTEX_POINT('',#617);
#367=VERTEX_POINT('',#618);
#368=VERTEX_POINT('',#619);
#369=VERTEX_POINT('',#620);
#370=VERTEX_POINT('',#621);
#371=VERTEX_POINT('',#622);
#372=VERTEX_POINT('',#623);
#373=VERTEX_POINT('',#624);
#374=VERTEX_POINT('',#625);
#375=PRODUCT_CATEGORY_RELATIONSHIP('','',#379,#377);
#376=PRODUCT_CATEGORY_RELATIONSHIP('','',#380,#378);
#377=PRODUCT_RELATED_PRODUCT_CATEGORY('detail','',(#392));
#378=PRODUCT_RELATED_PRODUCT_CATEGORY('detail','',(#393));
#379=PRODUCT_CATEGORY('part','');
#380=PRODUCT_CATEGORY('part','');
#381=SHAPE_DEFINITION_REPRESENTATION(#383,#400);
#382=SHAPE_DEFINITION_REPRESENTATION(#384,#401);
#383=PRODUCT_DEFINITION_SHAPE('','Shape',#386);
#384=PRODUCT_DEFINITION_SHAPE('','Shape',#387);
#385=PRODUCT_DEFINITION_SHAPE('','',#12);
#386=PRODUCT_DEFINITION('','',#388,#390);
#387=PRODUCT_DEFINITION('','',#389,#391);
#388=PRODUCT_DEFINITION_FORMATION('','',#392);
#389=PRODUCT_DEFINITION_FORMATION('','',#393);
#390=PRODUCT_DEFINITION_CONTEXT('part definition',#398,'');
#391=PRODUCT_DEFINITION_CONTEXT('part definition',#399,'');
#392=PRODUCT('TMFX-25-50','TMFX-25-50','not specified',(#394));
#393=PRODUCT('TMFX-25-50','TMFX-25-50','not specified',(#395));
#394=PRODUCT_CONTEXT('',#398,'mechanical');
#395=PRODUCT_CONTEXT('',#399,'mechanical');
#396=APPLICATION_PROTOCOL_DEFINITION('Draft International Standard',
'automotive_design',1997,#398);
#397=APPLICATION_PROTOCOL_DEFINITION('Draft International Standard',
'automotive_design',1997,#399);
#398=APPLICATION_CONTEXT('automotive design');
#399=APPLICATION_CONTEXT('automotive design');
#400=SHAPE_REPRESENTATION('TMFX-25-50',(#402,#459),#700);
#401=SHAPE_REPRESENTATION('TMFX-25-50',(#403),#701);
#402=AXIS2_PLACEMENT_3D('',#594,#460,#461);
#403=AXIS2_PLACEMENT_3D('',#595,#462,#463);
#404=AXIS2_PLACEMENT_3D('',#626,#464,#465);
#405=AXIS2_PLACEMENT_3D('',#627,#466,#467);
#406=AXIS2_PLACEMENT_3D('',#628,#468,#469);
#407=AXIS2_PLACEMENT_3D('',#629,#470,#471);
#408=AXIS2_PLACEMENT_3D('',#630,#472,#473);
#409=AXIS2_PLACEMENT_3D('',#631,#474,#475);
#410=AXIS2_PLACEMENT_3D('',#632,#476,#477);
#411=AXIS2_PLACEMENT_3D('',#633,#478,#479);
#412=AXIS2_PLACEMENT_3D('',#634,#480,#481);
#413=AXIS2_PLACEMENT_3D('',#635,#482,#483);
#414=AXIS2_PLACEMENT_3D('',#636,#484,#485);
#415=AXIS2_PLACEMENT_3D('',#637,#486,#487);
#416=AXIS2_PLACEMENT_3D('',#638,#488,#489);
#417=AXIS2_PLACEMENT_3D('',#639,#490,#491);
#418=AXIS2_PLACEMENT_3D('',#640,#492,#493);
#419=AXIS2_PLACEMENT_3D('',#641,#494,#495);
#420=AXIS2_PLACEMENT_3D('',#642,#496,#497);
#421=AXIS2_PLACEMENT_3D('',#643,#498,#499);
#422=AXIS2_PLACEMENT_3D('',#644,#500,#501);
#423=AXIS2_PLACEMENT_3D('',#645,#502,#503);
#424=AXIS2_PLACEMENT_3D('',#646,#504,#505);
#425=AXIS2_PLACEMENT_3D('',#659,#518,#519);
#426=AXIS2_PLACEMENT_3D('',#660,#520,#521);
#427=AXIS2_PLACEMENT_3D('',#661,#522,#523);
#428=AXIS2_PLACEMENT_3D('',#662,#524,#525);
#429=AXIS2_PLACEMENT_3D('',#663,#526,#527);
#430=AXIS2_PLACEMENT_3D('',#664,#528,#529);
#431=AXIS2_PLACEMENT_3D('',#665,#530,#531);
#432=AXIS2_PLACEMENT_3D('',#666,#532,#533);
#433=AXIS2_PLACEMENT_3D('',#667,#534,#535);
#434=AXIS2_PLACEMENT_3D('',#674,#542,#543);
#435=AXIS2_PLACEMENT_3D('',#675,#544,#545);
#436=AXIS2_PLACEMENT_3D('',#676,#546,#547);
#437=AXIS2_PLACEMENT_3D('',#677,#548,#549);
#438=AXIS2_PLACEMENT_3D('',#678,#550,#551);
#439=AXIS2_PLACEMENT_3D('',#679,#552,#553);
#440=AXIS2_PLACEMENT_3D('',#680,#554,#555);
#441=AXIS2_PLACEMENT_3D('',#681,#556,#557);
#442=AXIS2_PLACEMENT_3D('',#682,#558,#559);
#443=AXIS2_PLACEMENT_3D('',#683,#560,#561);
#444=AXIS2_PLACEMENT_3D('',#684,#562,#563);
#445=AXIS2_PLACEMENT_3D('',#685,#564,#565);
#446=AXIS2_PLACEMENT_3D('',#686,#566,#567);
#447=AXIS2_PLACEMENT_3D('',#687,#568,#569);
#448=AXIS2_PLACEMENT_3D('',#688,#570,#571);
#449=AXIS2_PLACEMENT_3D('',#689,#572,#573);
#450=AXIS2_PLACEMENT_3D('',#690,#574,#575);
#451=AXIS2_PLACEMENT_3D('',#691,#576,#577);
#452=AXIS2_PLACEMENT_3D('',#692,#579,#578);
#453=AXIS2_PLACEMENT_3D('',#693,#581,#580);
#454=AXIS2_PLACEMENT_3D('',#694,#583,#582);
#455=AXIS2_PLACEMENT_3D('',#695,#585,#584);
#456=AXIS2_PLACEMENT_3D('',#696,#587,#586);
#457=AXIS2_PLACEMENT_3D('',#697,#589,#588);
#458=AXIS2_PLACEMENT_3D('',#698,#590,#591);
#459=AXIS2_PLACEMENT_3D('',#699,#592,#593);
#460=DIRECTION('',(0.,0.,1.));
#461=DIRECTION('',(1.,0.,0.));
#462=DIRECTION('',(0.,0.,1.));
#463=DIRECTION('',(1.,0.,0.));
#464=DIRECTION('',(1.,0.,0.));
#465=DIRECTION('',(0.,1.,0.));
#466=DIRECTION('',(1.,0.,0.));
#467=DIRECTION('',(0.,1.,0.));
#468=DIRECTION('',(1.,0.,0.));
#469=DIRECTION('',(0.,-1.,0.));
#470=DIRECTION('',(1.,0.,0.));
#471=DIRECTION('',(0.,-1.,0.));
#472=DIRECTION('',(1.,0.,0.));
#473=DIRECTION('',(0.,-1.,0.));
#474=DIRECTION('',(1.,0.,0.));
#475=DIRECTION('',(0.,-1.,0.));
#476=DIRECTION('',(1.,0.,0.));
#477=DIRECTION('',(0.,1.,0.));
#478=DIRECTION('',(1.,0.,0.));
#479=DIRECTION('',(0.,1.,0.));
#480=DIRECTION('',(-1.,0.,0.));
#481=DIRECTION('',(0.,-1.,0.));
#482=DIRECTION('',(-1.,0.,0.));
#483=DIRECTION('',(0.,-1.,0.));
#484=DIRECTION('',(-1.,0.,0.));
#485=DIRECTION('',(0.,1.,0.));
#486=DIRECTION('',(-1.,0.,0.));
#487=DIRECTION('',(0.,1.,0.));
#488=DIRECTION('',(1.,0.,0.));
#489=DIRECTION('',(0.,-1.,0.));
#490=DIRECTION('',(-1.,0.,0.));
#491=DIRECTION('',(0.,1.,0.));
#492=DIRECTION('',(-1.,0.,0.));
#493=DIRECTION('',(0.,1.,0.));
#494=DIRECTION('',(-1.,0.,0.));
#495=DIRECTION('',(0.,1.,0.));
#496=DIRECTION('',(-1.,0.,0.));
#497=DIRECTION('',(0.,1.,0.));
#498=DIRECTION('',(-1.,0.,0.));
#499=DIRECTION('',(0.,1.,0.));
#500=DIRECTION('',(1.,0.,0.));
#501=DIRECTION('',(0.,-1.,0.));
#502=DIRECTION('',(-1.,0.,0.));
#503=DIRECTION('',(0.,1.,0.));
#504=DIRECTION('',(-1.,0.,0.));
#505=DIRECTION('',(0.,1.,0.));
#506=DIRECTION('',(-1.,0.,0.));
#507=DIRECTION('',(-1.,0.,0.));
#508=DIRECTION('',(1.,0.,0.));
#509=DIRECTION('',(1.,0.,0.));
#510=DIRECTION('',(1.,0.,0.));
#511=DIRECTION('',(1.,0.,0.));
#512=DIRECTION('',(1.,0.,0.));
#513=DIRECTION('',(1.,0.,0.));
#514=DIRECTION('',(-1.,0.,0.));
#515=DIRECTION('',(-1.,0.,0.));
#516=DIRECTION('',(-1.,0.,0.));
#517=DIRECTION('',(-1.,0.,0.));
#518=DIRECTION('',(1.,0.,0.));
#519=DIRECTION('',(0.,1.,0.));
#520=DIRECTION('',(-1.,0.,0.));
#521=DIRECTION('',(0.,-1.,0.));
#522=DIRECTION('',(-1.,0.,0.));
#523=DIRECTION('',(0.,-1.,0.));
#524=DIRECTION('',(-1.,0.,0.));
#525=DIRECTION('',(0.,-1.,0.));
#526=DIRECTION('',(-1.,0.,0.));
#527=DIRECTION('',(0.,-1.,0.));
#528=DIRECTION('',(-1.,0.,0.));
#529=DIRECTION('',(0.,-1.,0.));
#530=DIRECTION('',(1.,0.,0.));
#531=DIRECTION('',(0.,1.,0.));
#532=DIRECTION('',(-1.,0.,0.));
#533=DIRECTION('',(0.,-1.,0.));
#534=DIRECTION('',(-1.,0.,0.));
#535=DIRECTION('',(0.,-1.,0.));
#536=DIRECTION('',(0.707106781186546,0.707106781186549,0.));
#537=DIRECTION('',(0.707106781186551,-0.707106781186544,0.));
#538=DIRECTION('',(0.707106781186547,-0.707106781186547,0.));
#539=DIRECTION('',(0.707106781186547,0.707106781186547,0.));
#540=DIRECTION('',(0.707106781186543,0.707106781186552,0.));
#541=DIRECTION('',(0.707106781186543,-0.707106781186552,0.));
#542=DIRECTION('',(1.,0.,0.));
#543=DIRECTION('',(0.,-1.,0.));
#544=DIRECTION('',(1.,0.,0.));
#545=DIRECTION('',(0.,-1.,0.));
#546=DIRECTION('',(1.,0.,0.));
#547=DIRECTION('',(0.,-1.,0.));
#548=DIRECTION('',(1.,0.,0.));
#549=DIRECTION('',(0.,-1.,0.));
#550=DIRECTION('',(1.,0.,0.));
#551=DIRECTION('',(0.,-1.,0.));
#552=DIRECTION('',(1.,0.,0.));
#553=DIRECTION('',(0.,-1.,0.));
#554=DIRECTION('',(1.,0.,0.));
#555=DIRECTION('',(0.,1.,0.));
#556=DIRECTION('',(1.,0.,0.));
#557=DIRECTION('',(0.,0.,-1.));
#558=DIRECTION('',(1.,0.,0.));
#559=DIRECTION('',(0.,1.,0.));
#560=DIRECTION('',(-1.,0.,0.));
#561=DIRECTION('',(0.,0.,1.));
#562=DIRECTION('',(1.,0.,0.));
#563=DIRECTION('',(0.,1.,0.));
#564=DIRECTION('',(-1.,0.,0.));
#565=DIRECTION('',(0.,0.,1.));
#566=DIRECTION('',(1.,0.,0.));
#567=DIRECTION('',(0.,1.,0.));
#568=DIRECTION('',(-1.,0.,0.));
#569=DIRECTION('',(0.,0.,1.));
#570=DIRECTION('',(1.,0.,0.));
#571=DIRECTION('',(0.,1.,0.));
#572=DIRECTION('',(1.,0.,0.));
#573=DIRECTION('',(0.,0.,-1.));
#574=DIRECTION('',(1.,0.,0.));
#575=DIRECTION('',(0.,1.,0.));
#576=DIRECTION('',(-1.,0.,0.));
#577=DIRECTION('',(0.,0.,1.));
#578=DIRECTION('',(0.,1.,0.));
#579=DIRECTION('',(1.,0.,0.));
#580=DIRECTION('',(0.,-1.,0.));
#581=DIRECTION('',(1.,0.,0.));
#582=DIRECTION('',(0.,1.,0.));
#583=DIRECTION('',(-1.,0.,0.));
#584=DIRECTION('',(0.,-1.,0.));
#585=DIRECTION('',(-1.,0.,0.));
#586=DIRECTION('',(0.,-1.,0.));
#587=DIRECTION('',(-1.,0.,0.));
#588=DIRECTION('',(0.,1.,0.));
#589=DIRECTION('',(-1.,0.,0.));
#590=DIRECTION('',(0.,0.,1.));
#591=DIRECTION('',(1.,0.,0.));
#592=DIRECTION('',(0.,0.,1.));
#593=DIRECTION('',(1.,0.,0.));
#594=CARTESIAN_POINT('',(0.,0.,0.));
#595=CARTESIAN_POINT('',(0.,0.,0.));
#596=CARTESIAN_POINT('',(51.,-13.,0.));
#597=CARTESIAN_POINT('',(51.,13.,0.));
#598=CARTESIAN_POINT('',(51.,-12.55,0.));
#599=CARTESIAN_POINT('',(51.,12.55,0.));
#600=CARTESIAN_POINT('',(50.,12.55,0.));
#601=CARTESIAN_POINT('',(50.,-12.55,0.));
#602=CARTESIAN_POINT('',(0.,-13.,0.));
#603=CARTESIAN_POINT('',(0.,13.,0.));
#604=CARTESIAN_POINT('',(9.,-13.,0.));
#605=CARTESIAN_POINT('',(9.,13.,0.));
#606=CARTESIAN_POINT('',(9.,-12.55,0.));
#607=CARTESIAN_POINT('',(9.,12.55,0.));
#608=CARTESIAN_POINT('',(46.,-12.55,0.));
#609=CARTESIAN_POINT('',(46.,12.55,0.));
#610=CARTESIAN_POINT('',(46.,-11.2,0.));
#611=CARTESIAN_POINT('',(46.,11.2,0.));
#612=CARTESIAN_POINT('',(55.,11.2,0.));
#613=CARTESIAN_POINT('',(55.,-11.2,0.));
#614=CARTESIAN_POINT('',(0.5,14.9,0.));
#615=CARTESIAN_POINT('',(0.5,-14.9,0.));
#616=CARTESIAN_POINT('',(0.,14.4,0.));
#617=CARTESIAN_POINT('',(0.,-14.4,0.));
#618=CARTESIAN_POINT('',(50.,14.4,0.));
#619=CARTESIAN_POINT('',(50.,-14.4,0.));
#620=CARTESIAN_POINT('',(49.5,14.9,0.));
#621=CARTESIAN_POINT('',(49.5,-14.9,0.));
#622=CARTESIAN_POINT('',(55.,-12.7,0.));
#623=CARTESIAN_POINT('',(55.,12.7,0.));
#624=CARTESIAN_POINT('',(54.7,-13.,0.));
#625=CARTESIAN_POINT('',(54.7,13.,0.));
#626=CARTESIAN_POINT('',(54.7,0.,0.));
#627=CARTESIAN_POINT('',(55.,0.,0.));
#628=CARTESIAN_POINT('',(54.7,0.,0.));
#629=CARTESIAN_POINT('',(55.,0.,0.));
#630=CARTESIAN_POINT('',(49.5,0.,0.));
#631=CARTESIAN_POINT('',(50.,0.,0.));
#632=CARTESIAN_POINT('',(49.5,0.,0.));
#633=CARTESIAN_POINT('',(50.,0.,0.));
#634=CARTESIAN_POINT('',(0.,0.,0.));
#635=CARTESIAN_POINT('',(0.500000000000014,0.,0.));
#636=CARTESIAN_POINT('',(0.500000000000014,0.,0.));
#637=CARTESIAN_POINT('',(0.,0.,0.));
#638=CARTESIAN_POINT('',(55.,0.,0.));
#639=CARTESIAN_POINT('',(46.,0.,0.));
#640=CARTESIAN_POINT('',(46.,0.,0.));
#641=CARTESIAN_POINT('',(9.,0.,0.));
#642=CARTESIAN_POINT('',(9.,0.,0.));
#643=CARTESIAN_POINT('',(0.,0.,0.));
#644=CARTESIAN_POINT('',(50.,0.,0.));
#645=CARTESIAN_POINT('',(51.,0.,0.));
#646=CARTESIAN_POINT('',(51.,0.,0.));
#647=CARTESIAN_POINT('',(54.7,-13.,0.));
#648=CARTESIAN_POINT('',(54.7,13.,0.));
#649=CARTESIAN_POINT('',(46.,-11.2,0.));
#650=CARTESIAN_POINT('',(46.,11.2,0.));
#651=CARTESIAN_POINT('',(9.,-12.55,0.));
#652=CARTESIAN_POINT('',(9.,12.55,0.));
#653=CARTESIAN_POINT('',(0.,-13.,0.));
#654=CARTESIAN_POINT('',(0.,13.,0.));
#655=CARTESIAN_POINT('',(49.5,-14.9,0.));
#656=CARTESIAN_POINT('',(49.5,14.9,0.));
#657=CARTESIAN_POINT('',(51.,-12.55,0.));
#658=CARTESIAN_POINT('',(51.,12.55,0.));
#659=CARTESIAN_POINT('',(55.,0.,0.));
#660=CARTESIAN_POINT('',(46.,0.,0.));
#661=CARTESIAN_POINT('',(46.,0.,0.));
#662=CARTESIAN_POINT('',(9.,0.,0.));
#663=CARTESIAN_POINT('',(9.,0.,0.));
#664=CARTESIAN_POINT('',(0.,0.,0.));
#665=CARTESIAN_POINT('',(50.,0.,0.));
#666=CARTESIAN_POINT('',(51.,0.,0.));
#667=CARTESIAN_POINT('',(51.,0.,0.));
#668=CARTESIAN_POINT('',(0.,14.4,0.));
#669=CARTESIAN_POINT('',(0.,-14.4,0.));
#670=CARTESIAN_POINT('',(49.5,14.9,0.));
#671=CARTESIAN_POINT('',(49.5,-14.9,0.));
#672=CARTESIAN_POINT('',(54.7,-13.,0.));
#673=CARTESIAN_POINT('',(54.7,13.,0.));
#674=CARTESIAN_POINT('',(55.,0.,0.));
#675=CARTESIAN_POINT('',(46.,0.,0.));
#676=CARTESIAN_POINT('',(9.,0.,0.));
#677=CARTESIAN_POINT('',(0.,0.,0.));
#678=CARTESIAN_POINT('',(50.,0.,0.));
#679=CARTESIAN_POINT('',(51.,0.,0.));
#680=CARTESIAN_POINT('',(55.,0.,0.));
#681=CARTESIAN_POINT('',(55.,-13.,13.));
#682=CARTESIAN_POINT('',(46.,0.,0.));
#683=CARTESIAN_POINT('',(46.,-12.801,-12.801));
#684=CARTESIAN_POINT('',(9.,0.,0.));
#685=CARTESIAN_POINT('',(9.,-13.26,-13.26));
#686=CARTESIAN_POINT('',(0.,0.,0.));
#687=CARTESIAN_POINT('',(0.,-14.9,-14.9));
#688=CARTESIAN_POINT('',(50.,0.,0.));
#689=CARTESIAN_POINT('',(50.,-14.9,14.9));
#690=CARTESIAN_POINT('',(51.,0.,0.));
#691=CARTESIAN_POINT('',(51.,-13.26,-13.26));
#692=CARTESIAN_POINT('',(0.,0.,0.));
#693=CARTESIAN_POINT('',(0.,0.,0.));
#694=CARTESIAN_POINT('',(50.,0.,0.));
#695=CARTESIAN_POINT('',(50.,0.,0.));
#696=CARTESIAN_POINT('',(55.,0.,0.));
#697=CARTESIAN_POINT('',(55.,0.,0.));
#698=CARTESIAN_POINT('',(0.,0.,0.));
#699=CARTESIAN_POINT('',(0.,0.,0.));
#700=(
GEOMETRIC_REPRESENTATION_CONTEXT(3)
GLOBAL_UNCERTAINTY_ASSIGNED_CONTEXT((#703))
GLOBAL_UNIT_ASSIGNED_CONTEXT((#712,#709,#706))
REPRESENTATION_CONTEXT('','')
);
#701=(
GEOMETRIC_REPRESENTATION_CONTEXT(3)
GLOBAL_UNCERTAINTY_ASSIGNED_CONTEXT((#704))
GLOBAL_UNIT_ASSIGNED_CONTEXT((#713,#710,#707))
REPRESENTATION_CONTEXT('','')
);
#702=(
GEOMETRIC_REPRESENTATION_CONTEXT(3)
GLOBAL_UNCERTAINTY_ASSIGNED_CONTEXT((#705))
GLOBAL_UNIT_ASSIGNED_CONTEXT((#714,#711,#708))
REPRESENTATION_CONTEXT('','')
);
#703=UNCERTAINTY_MEASURE_WITH_UNIT(LENGTH_MEASURE(0.001),#712,'TOL_CRV',
'CONFUSED CURVE UNCERTAINTY');
#704=UNCERTAINTY_MEASURE_WITH_UNIT(LENGTH_MEASURE(0.001),#713,'TOL_CRV',
'CONFUSED CURVE UNCERTAINTY');
#705=UNCERTAINTY_MEASURE_WITH_UNIT(LENGTH_MEASURE(0.001),#714,'TOL_CRV',
'CONFUSED CURVE UNCERTAINTY');
#706=(
NAMED_UNIT(*)
SI_UNIT($,.STERADIAN.)
SOLID_ANGLE_UNIT()
);
#707=(
NAMED_UNIT(*)
SI_UNIT($,.STERADIAN.)
SOLID_ANGLE_UNIT()
);
#708=(
NAMED_UNIT(*)
SI_UNIT($,.STERADIAN.)
SOLID_ANGLE_UNIT()
);
#709=(
NAMED_UNIT(*)
PLANE_ANGLE_UNIT()
SI_UNIT($,.RADIAN.)
);
#710=(
NAMED_UNIT(*)
PLANE_ANGLE_UNIT()
SI_UNIT($,.RADIAN.)
);
#711=(
NAMED_UNIT(*)
PLANE_ANGLE_UNIT()
SI_UNIT($,.RADIAN.)
);
#712=(
LENGTH_UNIT()
NAMED_UNIT(*)
SI_UNIT(.MILLI.,.METRE.)
);
#713=(
LENGTH_UNIT()
NAMED_UNIT(*)
SI_UNIT(.MILLI.,.METRE.)
);
#714=(
LENGTH_UNIT()
NAMED_UNIT(*)
SI_UNIT(.MILLI.,.METRE.)
);
ENDSEC;
END-ISO-10303-21;
