ISO-10303-21;
HEADER;
/* Generated by software containing ST-Developer
 * from STEP Tools, Inc. (www.steptools.com) 
 */
/* OPTION: using custom schema-name function */

FILE_DESCRIPTION(
/* description */ ('VariCAD 2015-1.09 AP-214'),
/* implementation_level */ '2;1');

FILE_NAME(
/* name */ 'TMFX-10-25.stp',
/* time_stamp */ '2015-05-26T09:07:07+09:00',
/* author */ (''),
/* organization */ (''),
/* preprocessor_version */ 'ST-DEVELOPER v14',
/* originating_system */ 'VariCAD 2015-1.09; kernel version (20130303)',

/* authorisation */ '');

FILE_SCHEMA (('AUTOMOTIVE_DESIGN'));
ENDSEC;

DATA;
#10=MECHANICAL_DESIGN_GEOMETRIC_PRESENTATION_REPRESENTATION('',(#198),#602);
#11=CONTEXT_DEPENDENT_SHAPE_REPRESENTATION(#13,#329);
#12=NEXT_ASSEMBLY_USAGE_OCCURRENCE('','','',#330,#331,'');
#13=(
REPRESENTATION_RELATIONSHIP('','',#344,#345)
REPRESENTATION_RELATIONSHIP_WITH_TRANSFORMATION(#14)
SHAPE_REPRESENTATION_RELATIONSHIP()
);
#14=ITEM_DEFINED_TRANSFORMATION('','',#395,#347);
#15=SHAPE_REPRESENTATION_RELATIONSHIP('','',#345,#16);
#16=ADVANCED_BREP_SHAPE_REPRESENTATION('',(#18,#394),#601);
#17=CLOSED_SHELL('',(#159,#160,#161,#162,#163,#164,#165,#166,#167,#168,#169,
#170,#171,#172,#173,#174,#175,#176,#177,#178));
#18=MANIFOLD_SOLID_BREP('',#17);
#19=CONICAL_SURFACE('',#392,8.50000000000001,0.785398163397465);
#20=CONICAL_SURFACE('',#393,8.5,0.785398163397425);
#21=FACE_BOUND('',#60,.F.);
#22=FACE_BOUND('',#63,.F.);
#23=FACE_BOUND('',#66,.F.);
#24=FACE_BOUND('',#69,.F.);
#25=FACE_BOUND('',#72,.F.);
#26=FACE_BOUND('',#75,.F.);
#27=PLANE('',#381);
#28=PLANE('',#383);
#29=PLANE('',#385);
#30=PLANE('',#387);
#31=PLANE('',#389);
#32=PLANE('',#391);
#33=FACE_OUTER_BOUND('',#53,.F.);
#34=FACE_OUTER_BOUND('',#54,.F.);
#35=FACE_OUTER_BOUND('',#55,.F.);
#36=FACE_OUTER_BOUND('',#56,.F.);
#37=FACE_OUTER_BOUND('',#57,.F.);
#38=FACE_OUTER_BOUND('',#58,.F.);
#39=FACE_OUTER_BOUND('',#59,.F.);
#40=FACE_OUTER_BOUND('',#61,.F.);
#41=FACE_OUTER_BOUND('',#62,.F.);
#42=FACE_OUTER_BOUND('',#64,.F.);
#43=FACE_OUTER_BOUND('',#65,.F.);
#44=FACE_OUTER_BOUND('',#67,.F.);
#45=FACE_OUTER_BOUND('',#68,.F.);
#46=FACE_OUTER_BOUND('',#70,.F.);
#47=FACE_OUTER_BOUND('',#71,.F.);
#48=FACE_OUTER_BOUND('',#73,.F.);
#49=FACE_OUTER_BOUND('',#74,.F.);
#50=FACE_OUTER_BOUND('',#76,.F.);
#51=FACE_OUTER_BOUND('',#77,.F.);
#52=FACE_OUTER_BOUND('',#78,.F.);
#53=EDGE_LOOP('',(#79,#80,#81,#82));
#54=EDGE_LOOP('',(#83,#84,#85,#86));
#55=EDGE_LOOP('',(#87,#88,#89,#90));
#56=EDGE_LOOP('',(#91,#92,#93,#94));
#57=EDGE_LOOP('',(#95,#96,#97,#98));
#58=EDGE_LOOP('',(#99,#100,#101,#102));
#59=EDGE_LOOP('',(#103,#104,#105,#106));
#60=EDGE_LOOP('',(#107,#108));
#61=EDGE_LOOP('',(#109,#110));
#62=EDGE_LOOP('',(#111,#112,#113,#114));
#63=EDGE_LOOP('',(#115,#116));
#64=EDGE_LOOP('',(#117,#118));
#65=EDGE_LOOP('',(#119,#120,#121,#122));
#66=EDGE_LOOP('',(#123,#124));
#67=EDGE_LOOP('',(#125,#126));
#68=EDGE_LOOP('',(#127,#128,#129,#130));
#69=EDGE_LOOP('',(#131,#132));
#70=EDGE_LOOP('',(#133,#134));
#71=EDGE_LOOP('',(#135,#136,#137,#138));
#72=EDGE_LOOP('',(#139,#140));
#73=EDGE_LOOP('',(#141,#142));
#74=EDGE_LOOP('',(#143,#144,#145,#146));
#75=EDGE_LOOP('',(#147,#148));
#76=EDGE_LOOP('',(#149,#150));
#77=EDGE_LOOP('',(#151,#152,#153,#154));
#78=EDGE_LOOP('',(#155,#156,#157,#158));
#79=ORIENTED_EDGE('',*,*,#257,.T.);
#80=ORIENTED_EDGE('',*,*,#268,.T.);
#81=ORIENTED_EDGE('',*,*,#267,.F.);
#82=ORIENTED_EDGE('',*,*,#269,.F.);
#83=ORIENTED_EDGE('',*,*,#258,.F.);
#84=ORIENTED_EDGE('',*,*,#271,.F.);
#85=ORIENTED_EDGE('',*,*,#259,.F.);
#86=ORIENTED_EDGE('',*,*,#270,.T.);
#87=ORIENTED_EDGE('',*,*,#260,.T.);
#88=ORIENTED_EDGE('',*,*,#273,.F.);
#89=ORIENTED_EDGE('',*,*,#261,.F.);
#90=ORIENTED_EDGE('',*,*,#272,.T.);
#91=ORIENTED_EDGE('',*,*,#262,.T.);
#92=ORIENTED_EDGE('',*,*,#275,.F.);
#93=ORIENTED_EDGE('',*,*,#263,.T.);
#94=ORIENTED_EDGE('',*,*,#274,.T.);
#95=ORIENTED_EDGE('',*,*,#264,.F.);
#96=ORIENTED_EDGE('',*,*,#277,.F.);
#97=ORIENTED_EDGE('',*,*,#265,.F.);
#98=ORIENTED_EDGE('',*,*,#276,.T.);
#99=ORIENTED_EDGE('',*,*,#266,.T.);
#100=ORIENTED_EDGE('',*,*,#279,.F.);
#101=ORIENTED_EDGE('',*,*,#255,.T.);
#102=ORIENTED_EDGE('',*,*,#278,.T.);
#103=ORIENTED_EDGE('',*,*,#268,.F.);
#104=ORIENTED_EDGE('',*,*,#280,.T.);
#105=ORIENTED_EDGE('',*,*,#269,.T.);
#106=ORIENTED_EDGE('',*,*,#290,.F.);
#107=ORIENTED_EDGE('',*,*,#281,.T.);
#108=ORIENTED_EDGE('',*,*,#258,.T.);
#109=ORIENTED_EDGE('',*,*,#280,.F.);
#110=ORIENTED_EDGE('',*,*,#257,.F.);
#111=ORIENTED_EDGE('',*,*,#270,.F.);
#112=ORIENTED_EDGE('',*,*,#282,.F.);
#113=ORIENTED_EDGE('',*,*,#271,.T.);
#114=ORIENTED_EDGE('',*,*,#281,.F.);
#115=ORIENTED_EDGE('',*,*,#282,.T.);
#116=ORIENTED_EDGE('',*,*,#259,.T.);
#117=ORIENTED_EDGE('',*,*,#283,.F.);
#118=ORIENTED_EDGE('',*,*,#260,.F.);
#119=ORIENTED_EDGE('',*,*,#272,.F.);
#120=ORIENTED_EDGE('',*,*,#284,.F.);
#121=ORIENTED_EDGE('',*,*,#273,.T.);
#122=ORIENTED_EDGE('',*,*,#283,.T.);
#123=ORIENTED_EDGE('',*,*,#284,.T.);
#124=ORIENTED_EDGE('',*,*,#261,.T.);
#125=ORIENTED_EDGE('',*,*,#285,.F.);
#126=ORIENTED_EDGE('',*,*,#262,.F.);
#127=ORIENTED_EDGE('',*,*,#274,.F.);
#128=ORIENTED_EDGE('',*,*,#286,.T.);
#129=ORIENTED_EDGE('',*,*,#275,.T.);
#130=ORIENTED_EDGE('',*,*,#285,.T.);
#131=ORIENTED_EDGE('',*,*,#287,.T.);
#132=ORIENTED_EDGE('',*,*,#264,.T.);
#133=ORIENTED_EDGE('',*,*,#286,.F.);
#134=ORIENTED_EDGE('',*,*,#263,.F.);
#135=ORIENTED_EDGE('',*,*,#276,.F.);
#136=ORIENTED_EDGE('',*,*,#288,.F.);
#137=ORIENTED_EDGE('',*,*,#277,.T.);
#138=ORIENTED_EDGE('',*,*,#287,.F.);
#139=ORIENTED_EDGE('',*,*,#288,.T.);
#140=ORIENTED_EDGE('',*,*,#265,.T.);
#141=ORIENTED_EDGE('',*,*,#289,.F.);
#142=ORIENTED_EDGE('',*,*,#266,.F.);
#143=ORIENTED_EDGE('',*,*,#278,.F.);
#144=ORIENTED_EDGE('',*,*,#253,.T.);
#145=ORIENTED_EDGE('',*,*,#279,.T.);
#146=ORIENTED_EDGE('',*,*,#289,.T.);
#147=ORIENTED_EDGE('',*,*,#290,.T.);
#148=ORIENTED_EDGE('',*,*,#267,.T.);
#149=ORIENTED_EDGE('',*,*,#256,.F.);
#150=ORIENTED_EDGE('',*,*,#254,.F.);
#151=ORIENTED_EDGE('',*,*,#292,.F.);
#152=ORIENTED_EDGE('',*,*,#255,.F.);
#153=ORIENTED_EDGE('',*,*,#291,.T.);
#154=ORIENTED_EDGE('',*,*,#256,.T.);
#155=ORIENTED_EDGE('',*,*,#291,.F.);
#156=ORIENTED_EDGE('',*,*,#253,.F.);
#157=ORIENTED_EDGE('',*,*,#292,.T.);
#158=ORIENTED_EDGE('',*,*,#254,.T.);
#159=ADVANCED_FACE('',(#33),#179,.F.);
#160=ADVANCED_FACE('',(#34),#180,.F.);
#161=ADVANCED_FACE('',(#35),#181,.F.);
#162=ADVANCED_FACE('',(#36),#182,.T.);
#163=ADVANCED_FACE('',(#37),#183,.T.);
#164=ADVANCED_FACE('',(#38),#184,.T.);
#165=ADVANCED_FACE('',(#39),#185,.F.);
#166=ADVANCED_FACE('',(#21,#40),#27,.T.);
#167=ADVANCED_FACE('',(#41),#186,.F.);
#168=ADVANCED_FACE('',(#22,#42),#28,.T.);
#169=ADVANCED_FACE('',(#43),#187,.F.);
#170=ADVANCED_FACE('',(#23,#44),#29,.T.);
#171=ADVANCED_FACE('',(#45),#188,.T.);
#172=ADVANCED_FACE('',(#24,#46),#30,.T.);
#173=ADVANCED_FACE('',(#47),#189,.T.);
#174=ADVANCED_FACE('',(#25,#48),#31,.T.);
#175=ADVANCED_FACE('',(#49),#190,.T.);
#176=ADVANCED_FACE('',(#26,#50),#32,.T.);
#177=ADVANCED_FACE('',(#51),#19,.T.);
#178=ADVANCED_FACE('',(#52),#20,.T.);
#179=CYLINDRICAL_SURFACE('',#374,8.);
#180=CYLINDRICAL_SURFACE('',#375,5.);
#181=CYLINDRICAL_SURFACE('',#376,6.2);
#182=CYLINDRICAL_SURFACE('',#377,8.);
#183=CYLINDRICAL_SURFACE('',#378,6.92);
#184=CYLINDRICAL_SURFACE('',#379,9.);
#185=CYLINDRICAL_SURFACE('',#380,8.);
#186=CYLINDRICAL_SURFACE('',#382,5.);
#187=CYLINDRICAL_SURFACE('',#384,6.2);
#188=CYLINDRICAL_SURFACE('',#386,8.);
#189=CYLINDRICAL_SURFACE('',#388,6.92);
#190=CYLINDRICAL_SURFACE('',#390,9.);
#191=PRESENTATION_STYLE_ASSIGNMENT((#192));
#192=SURFACE_STYLE_USAGE(.BOTH.,#193);
#193=SURFACE_SIDE_STYLE('',(#194));
#194=SURFACE_STYLE_FILL_AREA(#195);
#195=FILL_AREA_STYLE('',(#196));
#196=FILL_AREA_STYLE_COLOUR('',#197);
#197=COLOUR_RGB('Colour',0.792156862745098,0.792156862745098,0.870588235294118);
#198=STYLED_ITEM('',(#191),#18);
#199=LINE('',#553,#213);
#200=LINE('',#554,#214);
#201=LINE('',#555,#215);
#202=LINE('',#556,#216);
#203=LINE('',#557,#217);
#204=LINE('',#558,#218);
#205=LINE('',#559,#219);
#206=LINE('',#560,#220);
#207=LINE('',#561,#221);
#208=LINE('',#562,#222);
#209=LINE('',#563,#223);
#210=LINE('',#564,#224);
#211=LINE('',#576,#225);
#212=LINE('',#577,#226);
#213=VECTOR('',#430,7.);
#214=VECTOR('',#431,7.);
#215=VECTOR('',#432,16.5);
#216=VECTOR('',#433,16.5);
#217=VECTOR('',#434,6.5);
#218=VECTOR('',#435,6.5);
#219=VECTOR('',#436,4.);
#220=VECTOR('',#437,4.);
#221=VECTOR('',#438,1.);
#222=VECTOR('',#439,1.);
#223=VECTOR('',#440,24.5);
#224=VECTOR('',#441,24.5);
#225=VECTOR('',#464,0.707106781186542);
#226=VECTOR('',#465,0.707106781186547);
#227=CIRCLE('',#348,9.);
#228=CIRCLE('',#349,8.5);
#229=CIRCLE('',#350,9.);
#230=CIRCLE('',#351,8.50000000000001);
#231=CIRCLE('',#352,8.);
#232=CIRCLE('',#353,5.);
#233=CIRCLE('',#354,5.);
#234=CIRCLE('',#355,6.2);
#235=CIRCLE('',#356,6.2);
#236=CIRCLE('',#357,8.);
#237=CIRCLE('',#358,8.);
#238=CIRCLE('',#359,6.92);
#239=CIRCLE('',#360,6.92);
#240=CIRCLE('',#361,9.);
#241=CIRCLE('',#362,8.);
#242=CIRCLE('',#363,8.);
#243=CIRCLE('',#364,5.);
#244=CIRCLE('',#365,5.);
#245=CIRCLE('',#366,6.2);
#246=CIRCLE('',#367,6.2);
#247=CIRCLE('',#368,8.);
#248=CIRCLE('',#369,8.);
#249=CIRCLE('',#370,6.92);
#250=CIRCLE('',#371,6.92);
#251=CIRCLE('',#372,9.);
#252=CIRCLE('',#373,8.);
#253=EDGE_CURVE('',#318,#317,#227,.T.);
#254=EDGE_CURVE('',#316,#315,#228,.T.);
#255=EDGE_CURVE('',#317,#318,#229,.T.);
#256=EDGE_CURVE('',#315,#316,#230,.T.);
#257=EDGE_CURVE('',#314,#313,#231,.T.);
#258=EDGE_CURVE('',#312,#311,#232,.T.);
#259=EDGE_CURVE('',#310,#309,#233,.T.);
#260=EDGE_CURVE('',#308,#307,#234,.T.);
#261=EDGE_CURVE('',#306,#305,#235,.T.);
#262=EDGE_CURVE('',#304,#303,#236,.T.);
#263=EDGE_CURVE('',#302,#301,#237,.T.);
#264=EDGE_CURVE('',#300,#299,#238,.T.);
#265=EDGE_CURVE('',#298,#297,#239,.T.);
#266=EDGE_CURVE('',#296,#295,#240,.T.);
#267=EDGE_CURVE('',#294,#293,#241,.T.);
#268=EDGE_CURVE('',#313,#293,#199,.T.);
#269=EDGE_CURVE('',#314,#294,#200,.T.);
#270=EDGE_CURVE('',#310,#311,#201,.T.);
#271=EDGE_CURVE('',#309,#312,#202,.T.);
#272=EDGE_CURVE('',#306,#308,#203,.T.);
#273=EDGE_CURVE('',#305,#307,#204,.T.);
#274=EDGE_CURVE('',#301,#304,#205,.T.);
#275=EDGE_CURVE('',#302,#303,#206,.T.);
#276=EDGE_CURVE('',#298,#299,#207,.T.);
#277=EDGE_CURVE('',#297,#300,#208,.T.);
#278=EDGE_CURVE('',#318,#296,#209,.T.);
#279=EDGE_CURVE('',#317,#295,#210,.T.);
#280=EDGE_CURVE('',#313,#314,#242,.T.);
#281=EDGE_CURVE('',#311,#312,#243,.T.);
#282=EDGE_CURVE('',#309,#310,#244,.T.);
#283=EDGE_CURVE('',#307,#308,#245,.T.);
#284=EDGE_CURVE('',#305,#306,#246,.T.);
#285=EDGE_CURVE('',#303,#304,#247,.T.);
#286=EDGE_CURVE('',#301,#302,#248,.T.);
#287=EDGE_CURVE('',#299,#300,#249,.T.);
#288=EDGE_CURVE('',#297,#298,#250,.T.);
#289=EDGE_CURVE('',#295,#296,#251,.T.);
#290=EDGE_CURVE('',#293,#294,#252,.T.);
#291=EDGE_CURVE('',#317,#315,#211,.T.);
#292=EDGE_CURVE('',#318,#316,#212,.T.);
#293=VERTEX_POINT('',#512);
#294=VERTEX_POINT('',#513);
#295=VERTEX_POINT('',#514);
#296=VERTEX_POINT('',#515);
#297=VERTEX_POINT('',#516);
#298=VERTEX_POINT('',#517);
#299=VERTEX_POINT('',#518);
#300=VERTEX_POINT('',#519);
#301=VERTEX_POINT('',#520);
#302=VERTEX_POINT('',#521);
#303=VERTEX_POINT('',#522);
#304=VERTEX_POINT('',#523);
#305=VERTEX_POINT('',#524);
#306=VERTEX_POINT('',#525);
#307=VERTEX_POINT('',#526);
#308=VERTEX_POINT('',#527);
#309=VERTEX_POINT('',#528);
#310=VERTEX_POINT('',#529);
#311=VERTEX_POINT('',#530);
#312=VERTEX_POINT('',#531);
#313=VERTEX_POINT('',#532);
#314=VERTEX_POINT('',#533);
#315=VERTEX_POINT('',#534);
#316=VERTEX_POINT('',#535);
#317=VERTEX_POINT('',#536);
#318=VERTEX_POINT('',#537);
#319=PRODUCT_CATEGORY_RELATIONSHIP('','',#323,#321);
#320=PRODUCT_CATEGORY_RELATIONSHIP('','',#324,#322);
#321=PRODUCT_RELATED_PRODUCT_CATEGORY('detail','',(#336));
#322=PRODUCT_RELATED_PRODUCT_CATEGORY('detail','',(#337));
#323=PRODUCT_CATEGORY('part','');
#324=PRODUCT_CATEGORY('part','');
#325=SHAPE_DEFINITION_REPRESENTATION(#327,#344);
#326=SHAPE_DEFINITION_REPRESENTATION(#328,#345);
#327=PRODUCT_DEFINITION_SHAPE('','Shape',#330);
#328=PRODUCT_DEFINITION_SHAPE('','Shape',#331);
#329=PRODUCT_DEFINITION_SHAPE('','',#12);
#330=PRODUCT_DEFINITION('','',#332,#334);
#331=PRODUCT_DEFINITION('','',#333,#335);
#332=PRODUCT_DEFINITION_FORMATION('','',#336);
#333=PRODUCT_DEFINITION_FORMATION('','',#337);
#334=PRODUCT_DEFINITION_CONTEXT('part definition',#342,'');
#335=PRODUCT_DEFINITION_CONTEXT('part definition',#343,'');
#336=PRODUCT('TMFX-10-25','TMFX-10-25','not specified',(#338));
#337=PRODUCT('TMFX-10-25','TMFX-10-25','not specified',(#339));
#338=PRODUCT_CONTEXT('',#342,'mechanical');
#339=PRODUCT_CONTEXT('',#343,'mechanical');
#340=APPLICATION_PROTOCOL_DEFINITION('Draft International Standard',
'automotive_design',1997,#342);
#341=APPLICATION_PROTOCOL_DEFINITION('Draft International Standard',
'automotive_design',1997,#343);
#342=APPLICATION_CONTEXT('automotive design');
#343=APPLICATION_CONTEXT('automotive design');
#344=SHAPE_REPRESENTATION('TMFX-10-25',(#346,#395),#600);
#345=SHAPE_REPRESENTATION('TMFX-10-25',(#347),#601);
#346=AXIS2_PLACEMENT_3D('',#510,#396,#397);
#347=AXIS2_PLACEMENT_3D('',#511,#398,#399);
#348=AXIS2_PLACEMENT_3D('',#538,#400,#401);
#349=AXIS2_PLACEMENT_3D('',#539,#402,#403);
#350=AXIS2_PLACEMENT_3D('',#540,#404,#405);
#351=AXIS2_PLACEMENT_3D('',#541,#406,#407);
#352=AXIS2_PLACEMENT_3D('',#542,#408,#409);
#353=AXIS2_PLACEMENT_3D('',#543,#410,#411);
#354=AXIS2_PLACEMENT_3D('',#544,#412,#413);
#355=AXIS2_PLACEMENT_3D('',#545,#414,#415);
#356=AXIS2_PLACEMENT_3D('',#546,#416,#417);
#357=AXIS2_PLACEMENT_3D('',#547,#418,#419);
#358=AXIS2_PLACEMENT_3D('',#548,#420,#421);
#359=AXIS2_PLACEMENT_3D('',#549,#422,#423);
#360=AXIS2_PLACEMENT_3D('',#550,#424,#425);
#361=AXIS2_PLACEMENT_3D('',#551,#426,#427);
#362=AXIS2_PLACEMENT_3D('',#552,#428,#429);
#363=AXIS2_PLACEMENT_3D('',#565,#442,#443);
#364=AXIS2_PLACEMENT_3D('',#566,#444,#445);
#365=AXIS2_PLACEMENT_3D('',#567,#446,#447);
#366=AXIS2_PLACEMENT_3D('',#568,#448,#449);
#367=AXIS2_PLACEMENT_3D('',#569,#450,#451);
#368=AXIS2_PLACEMENT_3D('',#570,#452,#453);
#369=AXIS2_PLACEMENT_3D('',#571,#454,#455);
#370=AXIS2_PLACEMENT_3D('',#572,#456,#457);
#371=AXIS2_PLACEMENT_3D('',#573,#458,#459);
#372=AXIS2_PLACEMENT_3D('',#574,#460,#461);
#373=AXIS2_PLACEMENT_3D('',#575,#462,#463);
#374=AXIS2_PLACEMENT_3D('',#578,#466,#467);
#375=AXIS2_PLACEMENT_3D('',#579,#468,#469);
#376=AXIS2_PLACEMENT_3D('',#580,#470,#471);
#377=AXIS2_PLACEMENT_3D('',#581,#472,#473);
#378=AXIS2_PLACEMENT_3D('',#582,#474,#475);
#379=AXIS2_PLACEMENT_3D('',#583,#476,#477);
#380=AXIS2_PLACEMENT_3D('',#584,#478,#479);
#381=AXIS2_PLACEMENT_3D('',#585,#480,#481);
#382=AXIS2_PLACEMENT_3D('',#586,#482,#483);
#383=AXIS2_PLACEMENT_3D('',#587,#484,#485);
#384=AXIS2_PLACEMENT_3D('',#588,#486,#487);
#385=AXIS2_PLACEMENT_3D('',#589,#488,#489);
#386=AXIS2_PLACEMENT_3D('',#590,#490,#491);
#387=AXIS2_PLACEMENT_3D('',#591,#492,#493);
#388=AXIS2_PLACEMENT_3D('',#592,#494,#495);
#389=AXIS2_PLACEMENT_3D('',#593,#496,#497);
#390=AXIS2_PLACEMENT_3D('',#594,#498,#499);
#391=AXIS2_PLACEMENT_3D('',#595,#500,#501);
#392=AXIS2_PLACEMENT_3D('',#596,#503,#502);
#393=AXIS2_PLACEMENT_3D('',#597,#505,#504);
#394=AXIS2_PLACEMENT_3D('',#598,#506,#507);
#395=AXIS2_PLACEMENT_3D('',#599,#508,#509);
#396=DIRECTION('',(0.,0.,1.));
#397=DIRECTION('',(1.,0.,0.));
#398=DIRECTION('',(0.,0.,1.));
#399=DIRECTION('',(1.,0.,0.));
#400=DIRECTION('',(-1.,0.,0.));
#401=DIRECTION('',(0.,-1.,0.));
#402=DIRECTION('',(-1.,0.,0.));
#403=DIRECTION('',(0.,-1.,0.));
#404=DIRECTION('',(-1.,0.,0.));
#405=DIRECTION('',(0.,1.,0.));
#406=DIRECTION('',(-1.,0.,0.));
#407=DIRECTION('',(0.,1.,0.));
#408=DIRECTION('',(-1.,0.,0.));
#409=DIRECTION('',(0.,1.,0.));
#410=DIRECTION('',(-1.,0.,0.));
#411=DIRECTION('',(0.,1.,0.));
#412=DIRECTION('',(1.,0.,0.));
#413=DIRECTION('',(0.,-1.,0.));
#414=DIRECTION('',(1.,0.,0.));
#415=DIRECTION('',(0.,-1.,0.));
#416=DIRECTION('',(1.,0.,0.));
#417=DIRECTION('',(0.,-1.,0.));
#418=DIRECTION('',(1.,0.,0.));
#419=DIRECTION('',(0.,-1.,0.));
#420=DIRECTION('',(-1.,0.,0.));
#421=DIRECTION('',(0.,1.,0.));
#422=DIRECTION('',(-1.,0.,0.));
#423=DIRECTION('',(0.,1.,0.));
#424=DIRECTION('',(1.,0.,0.));
#425=DIRECTION('',(0.,-1.,0.));
#426=DIRECTION('',(1.,0.,0.));
#427=DIRECTION('',(0.,-1.,0.));
#428=DIRECTION('',(-1.,0.,0.));
#429=DIRECTION('',(0.,1.,0.));
#430=DIRECTION('',(-1.,0.,0.));
#431=DIRECTION('',(-1.,0.,0.));
#432=DIRECTION('',(-1.,0.,0.));
#433=DIRECTION('',(-1.,0.,0.));
#434=DIRECTION('',(-1.,0.,0.));
#435=DIRECTION('',(-1.,0.,0.));
#436=DIRECTION('',(1.,0.,0.));
#437=DIRECTION('',(1.,0.,0.));
#438=DIRECTION('',(1.,0.,0.));
#439=DIRECTION('',(1.,0.,0.));
#440=DIRECTION('',(1.,0.,0.));
#441=DIRECTION('',(1.,0.,0.));
#442=DIRECTION('',(-1.,0.,0.));
#443=DIRECTION('',(0.,-1.,0.));
#444=DIRECTION('',(-1.,0.,0.));
#445=DIRECTION('',(0.,-1.,0.));
#446=DIRECTION('',(1.,0.,0.));
#447=DIRECTION('',(0.,1.,0.));
#448=DIRECTION('',(1.,0.,0.));
#449=DIRECTION('',(0.,1.,0.));
#450=DIRECTION('',(1.,0.,0.));
#451=DIRECTION('',(0.,1.,0.));
#452=DIRECTION('',(1.,0.,0.));
#453=DIRECTION('',(0.,1.,0.));
#454=DIRECTION('',(-1.,0.,0.));
#455=DIRECTION('',(0.,-1.,0.));
#456=DIRECTION('',(-1.,0.,0.));
#457=DIRECTION('',(0.,-1.,0.));
#458=DIRECTION('',(1.,0.,0.));
#459=DIRECTION('',(0.,1.,0.));
#460=DIRECTION('',(1.,0.,0.));
#461=DIRECTION('',(0.,1.,0.));
#462=DIRECTION('',(-1.,0.,0.));
#463=DIRECTION('',(0.,-1.,0.));
#464=DIRECTION('',(-0.70710678118655,-0.707106781186546,0.));
#465=DIRECTION('',(-0.707106781186547,0.707106781186548,0.));
#466=DIRECTION('',(1.,0.,0.));
#467=DIRECTION('',(0.,-1.,0.));
#468=DIRECTION('',(1.,0.,0.));
#469=DIRECTION('',(0.,-1.,0.));
#470=DIRECTION('',(1.,0.,0.));
#471=DIRECTION('',(0.,-1.,0.));
#472=DIRECTION('',(1.,0.,0.));
#473=DIRECTION('',(0.,-1.,0.));
#474=DIRECTION('',(1.,0.,0.));
#475=DIRECTION('',(0.,-1.,0.));
#476=DIRECTION('',(1.,0.,0.));
#477=DIRECTION('',(0.,-1.,0.));
#478=DIRECTION('',(1.,0.,0.));
#479=DIRECTION('',(0.,1.,0.));
#480=DIRECTION('',(-1.,0.,0.));
#481=DIRECTION('',(0.,0.,1.));
#482=DIRECTION('',(1.,0.,0.));
#483=DIRECTION('',(0.,1.,0.));
#484=DIRECTION('',(1.,0.,0.));
#485=DIRECTION('',(0.,0.,-1.));
#486=DIRECTION('',(1.,0.,0.));
#487=DIRECTION('',(0.,1.,0.));
#488=DIRECTION('',(1.,0.,0.));
#489=DIRECTION('',(0.,0.,-1.));
#490=DIRECTION('',(1.,0.,0.));
#491=DIRECTION('',(0.,1.,0.));
#492=DIRECTION('',(-1.,0.,0.));
#493=DIRECTION('',(0.,0.,1.));
#494=DIRECTION('',(1.,0.,0.));
#495=DIRECTION('',(0.,1.,0.));
#496=DIRECTION('',(1.,0.,0.));
#497=DIRECTION('',(0.,0.,-1.));
#498=DIRECTION('',(1.,0.,0.));
#499=DIRECTION('',(0.,1.,0.));
#500=DIRECTION('',(-1.,0.,0.));
#501=DIRECTION('',(0.,0.,1.));
#502=DIRECTION('',(0.,1.,0.));
#503=DIRECTION('',(1.,0.,0.));
#504=DIRECTION('',(0.,-1.,0.));
#505=DIRECTION('',(1.,0.,0.));
#506=DIRECTION('',(0.,0.,1.));
#507=DIRECTION('',(1.,0.,0.));
#508=DIRECTION('',(0.,0.,1.));
#509=DIRECTION('',(1.,0.,0.));
#510=CARTESIAN_POINT('',(0.,0.,0.));
#511=CARTESIAN_POINT('',(0.,0.,0.));
#512=CARTESIAN_POINT('',(0.,-8.,0.));
#513=CARTESIAN_POINT('',(0.,8.,0.));
#514=CARTESIAN_POINT('',(25.,9.,0.));
#515=CARTESIAN_POINT('',(25.,-9.,0.));
#516=CARTESIAN_POINT('',(25.,6.92,0.));
#517=CARTESIAN_POINT('',(25.,-6.92,0.));
#518=CARTESIAN_POINT('',(26.,-6.92,0.));
#519=CARTESIAN_POINT('',(26.,6.92,0.));
#520=CARTESIAN_POINT('',(26.,-8.,0.));
#521=CARTESIAN_POINT('',(26.,8.,0.));
#522=CARTESIAN_POINT('',(30.,8.,0.));
#523=CARTESIAN_POINT('',(30.,-8.,0.));
#524=CARTESIAN_POINT('',(30.,6.2,0.));
#525=CARTESIAN_POINT('',(30.,-6.2,0.));
#526=CARTESIAN_POINT('',(23.5,6.2,0.));
#527=CARTESIAN_POINT('',(23.5,-6.2,0.));
#528=CARTESIAN_POINT('',(23.5,5.,0.));
#529=CARTESIAN_POINT('',(23.5,-5.,0.));
#530=CARTESIAN_POINT('',(7.,-5.,0.));
#531=CARTESIAN_POINT('',(7.,5.,0.));
#532=CARTESIAN_POINT('',(7.,-8.,0.));
#533=CARTESIAN_POINT('',(7.,8.,0.));
#534=CARTESIAN_POINT('',(0.,8.50000000000001,0.));
#535=CARTESIAN_POINT('',(0.,-8.5,0.));
#536=CARTESIAN_POINT('',(0.500000000000001,9.,0.));
#537=CARTESIAN_POINT('',(0.500000000000001,-9.,0.));
#538=CARTESIAN_POINT('',(0.499999999999995,0.,0.));
#539=CARTESIAN_POINT('',(0.,0.,0.));
#540=CARTESIAN_POINT('',(0.499999999999993,0.,0.));
#541=CARTESIAN_POINT('',(0.,0.,0.));
#542=CARTESIAN_POINT('',(7.,0.,0.));
#543=CARTESIAN_POINT('',(7.,0.,0.));
#544=CARTESIAN_POINT('',(23.5,0.,0.));
#545=CARTESIAN_POINT('',(23.5,0.,0.));
#546=CARTESIAN_POINT('',(30.,0.,0.));
#547=CARTESIAN_POINT('',(30.,0.,0.));
#548=CARTESIAN_POINT('',(26.,0.,0.));
#549=CARTESIAN_POINT('',(26.,0.,0.));
#550=CARTESIAN_POINT('',(25.,0.,0.));
#551=CARTESIAN_POINT('',(25.,0.,0.));
#552=CARTESIAN_POINT('',(0.,0.,0.));
#553=CARTESIAN_POINT('',(7.,-8.,0.));
#554=CARTESIAN_POINT('',(7.,8.,0.));
#555=CARTESIAN_POINT('',(23.5,-5.,0.));
#556=CARTESIAN_POINT('',(23.5,5.,0.));
#557=CARTESIAN_POINT('',(30.,-6.2,0.));
#558=CARTESIAN_POINT('',(30.,6.2,0.));
#559=CARTESIAN_POINT('',(26.,-8.,0.));
#560=CARTESIAN_POINT('',(26.,8.,0.));
#561=CARTESIAN_POINT('',(25.,-6.92,0.));
#562=CARTESIAN_POINT('',(25.,6.92,0.));
#563=CARTESIAN_POINT('',(0.5,-9.,0.));
#564=CARTESIAN_POINT('',(0.5,9.,0.));
#565=CARTESIAN_POINT('',(7.,0.,0.));
#566=CARTESIAN_POINT('',(7.,0.,0.));
#567=CARTESIAN_POINT('',(23.5,0.,0.));
#568=CARTESIAN_POINT('',(23.5,0.,0.));
#569=CARTESIAN_POINT('',(30.,0.,0.));
#570=CARTESIAN_POINT('',(30.,0.,0.));
#571=CARTESIAN_POINT('',(26.,0.,0.));
#572=CARTESIAN_POINT('',(26.,0.,0.));
#573=CARTESIAN_POINT('',(25.,0.,0.));
#574=CARTESIAN_POINT('',(25.,0.,0.));
#575=CARTESIAN_POINT('',(0.,0.,0.));
#576=CARTESIAN_POINT('',(0.5,9.,0.));
#577=CARTESIAN_POINT('',(0.5,-9.,0.));
#578=CARTESIAN_POINT('',(7.,0.,0.));
#579=CARTESIAN_POINT('',(23.5,0.,0.));
#580=CARTESIAN_POINT('',(30.,0.,0.));
#581=CARTESIAN_POINT('',(26.,0.,0.));
#582=CARTESIAN_POINT('',(25.,0.,0.));
#583=CARTESIAN_POINT('',(0.,0.,0.));
#584=CARTESIAN_POINT('',(7.,0.,0.));
#585=CARTESIAN_POINT('',(7.,-8.16,-8.16));
#586=CARTESIAN_POINT('',(23.5,0.,0.));
#587=CARTESIAN_POINT('',(23.5,-6.324,6.324));
#588=CARTESIAN_POINT('',(30.,0.,0.));
#589=CARTESIAN_POINT('',(30.,-8.16,8.16));
#590=CARTESIAN_POINT('',(26.,0.,0.));
#591=CARTESIAN_POINT('',(26.,-8.16,-8.16));
#592=CARTESIAN_POINT('',(25.,0.,0.));
#593=CARTESIAN_POINT('',(25.,-9.18,9.18));
#594=CARTESIAN_POINT('',(0.,0.,0.));
#595=CARTESIAN_POINT('',(0.,-9.,-9.));
#596=CARTESIAN_POINT('',(0.,0.,0.));
#597=CARTESIAN_POINT('',(0.,0.,0.));
#598=CARTESIAN_POINT('',(0.,0.,0.));
#599=CARTESIAN_POINT('',(0.,0.,0.));
#600=(
GEOMETRIC_REPRESENTATION_CONTEXT(3)
GLOBAL_UNCERTAINTY_ASSIGNED_CONTEXT((#603))
GLOBAL_UNIT_ASSIGNED_CONTEXT((#612,#609,#606))
REPRESENTATION_CONTEXT('','')
);
#601=(
GEOMETRIC_REPRESENTATION_CONTEXT(3)
GLOBAL_UNCERTAINTY_ASSIGNED_CONTEXT((#604))
GLOBAL_UNIT_ASSIGNED_CONTEXT((#613,#610,#607))
REPRESENTATION_CONTEXT('','')
);
#602=(
GEOMETRIC_REPRESENTATION_CONTEXT(3)
GLOBAL_UNCERTAINTY_ASSIGNED_CONTEXT((#605))
GLOBAL_UNIT_ASSIGNED_CONTEXT((#614,#611,#608))
REPRESENTATION_CONTEXT('','')
);
#603=UNCERTAINTY_MEASURE_WITH_UNIT(LENGTH_MEASURE(0.001),#612,'TOL_CRV',
'CONFUSED CURVE UNCERTAINTY');
#604=UNCERTAINTY_MEASURE_WITH_UNIT(LENGTH_MEASURE(0.001),#613,'TOL_CRV',
'CONFUSED CURVE UNCERTAINTY');
#605=UNCERTAINTY_MEASURE_WITH_UNIT(LENGTH_MEASURE(0.001),#614,'TOL_CRV',
'CONFUSED CURVE UNCERTAINTY');
#606=(
NAMED_UNIT(*)
SI_UNIT($,.STERADIAN.)
SOLID_ANGLE_UNIT()
);
#607=(
NAMED_UNIT(*)
SI_UNIT($,.STERADIAN.)
SOLID_ANGLE_UNIT()
);
#608=(
NAMED_UNIT(*)
SI_UNIT($,.STERADIAN.)
SOLID_ANGLE_UNIT()
);
#609=(
NAMED_UNIT(*)
PLANE_ANGLE_UNIT()
SI_UNIT($,.RADIAN.)
);
#610=(
NAMED_UNIT(*)
PLANE_ANGLE_UNIT()
SI_UNIT($,.RADIAN.)
);
#611=(
NAMED_UNIT(*)
PLANE_ANGLE_UNIT()
SI_UNIT($,.RADIAN.)
);
#612=(
LENGTH_UNIT()
NAMED_UNIT(*)
SI_UNIT(.MILLI.,.METRE.)
);
#613=(
LENGTH_UNIT()
NAMED_UNIT(*)
SI_UNIT(.MILLI.,.METRE.)
);
#614=(
LENGTH_UNIT()
NAMED_UNIT(*)
SI_UNIT(.MILLI.,.METRE.)
);
ENDSEC;
END-ISO-10303-21;
